Russian Fan Site Whitesnake - Российский неофициальный сайт Whitesnake.
Биография легендарной рок группы, история ее создания и дискография! Новости на сайте, концерты и отчеты с концертов. Фотографии, тексты песен и переводы.
Menu Whitesnake
 
Биография Whitesnake
Биография David Coverdale
Изменение состава Whitesnake
Tour Dates
Фотогалерея Whitesnake
Новые фотографии Whitesnake
Photos Band Members
Галерея Whitesnake
Видео Whitesnake
Media Whitesnake
Lirycs Whitesnake
Tabs Whitesnake
 

Партнеры

Работа по теме обратная связь.

 Отправить сообщение администратору сайта  
 
Уход Uriah'a Duffy и Chris'a Frazier'a

Gettin' Tighter

(Bolin/Hughes)

From "Come Taste The band", 1975

E||-----------------------------|-----------------------------|
B||-----------------------------|-----------------------------|
G||*--------x-x-7--5----x-x-14--|--12----x-x-7--x-x-5--x-x----|
D||*--7--7--x-x-7--5----x-x-14--|--12----x-x-7--x-x-5--x-x-5--|
A||---7--7----------------------|--------------------------5--|
E||---5--5----------------------|--------------------------3--|


 
----------------------------|-------------------------------|
----------------------------|-------------------------------|
--------x-x-7--5----x-x-14--|--12----x-x-x-x-x-x-x-x-x-x----|
--7--7--x-x-7--5----x-x-14--|--12----x-x-x-x-x-x-x-x-x-x-5--|
--7--7----------------------|----------------------------5--|
--5--5----------------------|----------------------------3--|


 
----------------------------|------------------------------||
----------------------------|------------------------------||
--------x-x-7--5----x-x-14--|--12----x-x-7--x-x-5--x-x----*||
--7--7--x-x-7--5----x-x-14--|--12----x-x-7--x-x-5--x-x-5--*||
--7--7----------------------|--------------------------5---||
--5--5----------------------|--------------------------3---||
Friends Whitesnake
    Home Page
    Информация о сайте
    Связь с администратором сайта
     
    Гостевая книга
     
     Whitesnake Хиты
    During the early 1970s
    Hell Bent For Leather
    Inject The Venom
     
    Обмен баннерами и ссылками
     

    Тексты песен Deep Purple  Тексты песен Whitesnake  Тексты песен Deep Purple

    Каталог статей



     Партнеры

Unofficial Russian Fan Site Whitesnake 2008 © 2019