Russian Fan Site Whitesnake - Российский неофициальный сайт Whitesnake.
Биография легендарной рок группы, история ее создания и дискография! Новости на сайте, концерты и отчеты с концертов. Фотографии, тексты песен и переводы.
Menu Whitesnake
 
Биография Whitesnake
Биография David Coverdale
Изменение состава Whitesnake
Tour Dates
Фотогалерея Whitesnake
Новые фотографии Whitesnake
Photos Band Members
Галерея Whitesnake
Видео Whitesnake
Media Whitesnake
Lirycs Whitesnake
Tabs Whitesnake
 

Партнеры

 Отправить сообщение администратору сайта  
 
Уход Uriah'a Duffy и Chris'a Frazier'a

Owed to G

(Bolin)

From "Come Taste The Band", 1975

Key: Em6

Em6

 

A

G/A

A

G/A

E|----0---------0-2-----
B|--2---2-0---2-----0---
G|--2---2-0---2-----0---
D|----------------------
A|----------------------
E|----------------------

 

Em6

C7

B7

C7

B7

Repeat from the beginning and then

 

Em6/9

 

E|------------------------------2----
B|------5-3----------5-3--------2----
G|----------4-2-0-3------4-2-0--0----
D|------------------------------2----
A|------------------------------2----
E|--0--------------------------------

Friends Whitesnake
Партнеры

Unofficial Russian Fan Site Whitesnake 2008 © 2017