Russian Fan Site Whitesnake - Российский неофициальный сайт Whitesnake.
Биография легендарной рок группы, история ее создания и дискография! Новости на сайте, концерты и отчеты с концертов. Фотографии, тексты песен и переводы.
Menu Whitesnake
 
Биография Whitesnake
Биография David Coverdale
Изменение состава Whitesnake
Tour Dates
Фотогалерея Whitesnake
Новые фотографии Whitesnake
Photos Band Members
Галерея Whitesnake
Видео Whitesnake
Media Whitesnake
Lirycs Whitesnake
Tabs Whitesnake
 

Партнеры

 Отправить сообщение администратору сайта  
 
Уход Uriah'a Duffy и Chris'a Frazier'a

Lady Double Dealer

(Blackmore/Coverdale)

From "Stormbringer", 1974

E||-------------------------|------------------------|
B||-------------------------|------------------------|
G||-------------------------|------------------------|
D||-----7--5-----5-------5--|-------5--7-------5--7--|
A||--0--------7-------7-----|----7----------7--------|
E||-------------------------|------------------------|



-------------------------|----------------------|------------------|
-------------------------|----------------------|------------------|
-------------------------|----------------------|------------------|
-------5--7-----7--5-----|--5-------------------|------------------|
----7--------0--------7--|-------7--5------3----|------------------|
-------------------------|----------------------|------------------|
Friends Whitesnake
    Home Page
    Информация о сайте
    Связь с администратором сайта
     
    Гостевая книга
     
     Whitesnake Хиты
    Snowballed
    You Ain't Got A Hold On Me
    Rough an' ready
     
    Обмен баннерами и ссылками
     

    Тексты песен Deep Purple  Тексты песен Whitesnake  Тексты песен Deep Purple

    Каталог статей



     Партнеры
цены на серебряные кольца и браслеты

Unofficial Russian Fan Site Whitesnake 2008 © 2020