Russian Fan Site Whitesnake - Российский неофициальный сайт Whitesnake.
Биография легендарной рок группы, история ее создания и дискография! Новости на сайте, концерты и отчеты с концертов. Фотографии, тексты песен и переводы.
Menu Whitesnake
 
Биография Whitesnake
Биография David Coverdale
Изменение состава Whitesnake
Tour Dates
Фотогалерея Whitesnake
Новые фотографии Whitesnake
Photos Band Members
Галерея Whitesnake
Видео Whitesnake
Media Whitesnake
Lirycs Whitesnake
Tabs Whitesnake
 

Партнеры

Купить автомобиль в Шумерля

 Отправить сообщение администратору сайта  
 
Уход Uriah'a Duffy и Chris'a Frazier'a

Living Wreck (Bass)
(Blackmore/Gillan/Glover/Lord/Paice)
From "In Rock", 1970.
intro O:16
|---------------|---------|---------------|------|---------------|---------|---------------|
|---------------|---------|---------------|------|---------------|---------|---------------|
|---2-----------|---------|---2-----------|------|---2-----------|---------|---2-----------|
|------5--2--O--|---2--5--|------5--2--O--|---2--|------5--2--O--|---2--5--|------5--2--O--|

|------------|
|---------2--|
|------4-----|
|---2--------|

verse 8x
|----------------9---9---11--|
|*------9-H-11--------------*|
|*--9-----------------------*|
|----------------------------|

chorus
|---------7-----------7-----|---------9-----------9-----|------|----|--------------------------|
|------7-----7-----7-----7--|------9-----9-----9-----9--|------|----|--------------------------|
|---5-----------5-----------|---7-----------7-----------|---4--|----|--------------------------|
|---------------------------|---------------------------|------|----|--7-7-7-7-7-7-7-7-7-7-7-7-|

|----------------------------------------------------|-----------------------------------------|
|----------------------------------------------------|-----------------------------------------|
|----------------------------------------------------|-----------------------------------------|
|---1O-1O-1O-1O-1O-1O-1O-1O-1O-1O-1O-1O-1O-1O-1O-1O/-|--13-13-13-13-13-13-13-13-13-13-13-13-13-|

|--------------------------------------------------|-------|
|--------------------------------------------------|-------|
|--------------------------------------------------|-------|
|--16-16-16-16-16-16-16-16-16-16-16-16-16-16-16-16-|--19\--|

intro 2
|---------------|---------|---------------|----------9--|
|---------------|---------|---------------|------11-----|
|---------------|---------|---2-----------|-------------|
|---O--2--2--O--|---2--5--|------5--2--O--|---2---------|

verse 1x chorus 1x

guitar solo                           3x
|------------|---------|------------|------|------------|---------|------------|------------|
|*-----------|---------|------------|-----*|------------|---------|------------|---------2--|
|*-----------|---------|------------|-----*|------------|---------|------------|------4-----|
|---O--2--O--|---2--5--|---O--2--O--|---2--|---O--2--O--|---2--5--|---O--2--O--|---2--------|

verse 1x chorus 1x

keyboard solo 3x
|-------------------------------|-------------------------------|-----------------------------|
|*-----------------------------*|-------------------------------|-----------------------------|
|*--9--9--9--9--9--9--9--9--9--*|---7-H-9--9--7--7--7-----------|---7-H-9-9-9-9-9-9-9-9-9-9-7-|
|-------------------------------|----------------------9--7--9--|-----------------------------|

|---------------------------------|-------------------------------|
|------7--------------------------|-------------------------------|
|---9-----9-9-9-9-9-9-9-9-9-9-9-9-|---7--7--9-9-9-9-9-9-9-9-9-9-9-|
|---------------------------------|-------------------------------|

|-------------------11-11-11-11-11-11-11-11-|-----------------------------|
|---------------11--------------------------|-----------------------------|
|---9--9--9--9------------------------------|---9-9-9-9-9-9-9-9-9-7-7-7-7-|
|-------------------------------------------|-----------------------------|

|---------------------|------------------------------|---------------------|
|---------------------|------------7-7-9-9-9-9-7-----|---------------------|
|---9-9-9-9-9-9-7-7-7-|---9-9-9-9----------------9-9-|---9-9-9-9-9-9-7-7-7-|
|---------------------|------------------------------|---------------------|

|---------------------------|-------------------------------|
|---------------------------|-------------------------------|
|---9-9-9-9-9-9-9-9-9-9-9-9-|---9-9-9-9-9-9-9-7-7-7-7-7-7-7-|
|---------------------------|-------------------------------|

|-----------------------|--------------------|--------------------|-----------------------|
|-----------------------|--------------------|-----------------2--|-----------------------|
|---9-9-9-9-9-9-9-7-7-7-|---9-9-7-7-4-4------|-------------2-4----|-----------------------|
|-----------------------|----------------7-5-|---2-2-2-2-2--------|---2-2-2-2-2-2-2-2-O-1-|

Friends Whitesnake
Партнеры

Unofficial Russian Fan Site Whitesnake 2008 © 2017