Russian Fan Site Whitesnake - Российский неофициальный сайт Whitesnake.
Биография легендарной рок группы, история ее создания и дискография! Новости на сайте, концерты и отчеты с концертов. Фотографии, тексты песен и переводы.
Menu Whitesnake
 
Биография Whitesnake
Биография David Coverdale
Изменение состава Whitesnake
Tour Dates
Фотогалерея Whitesnake
Новые фотографии Whitesnake
Photos Band Members
Галерея Whitesnake
Видео Whitesnake
Media Whitesnake
Lirycs Whitesnake
Tabs Whitesnake
 

Партнеры

Медицинская одежда в спб посмотреть.

 Отправить сообщение администратору сайта  
 
Уход Uriah'a Duffy и Chris'a Frazier'a

Bloodsucker
(Blackmore/Gillan/Glover/Lord/Paice)
From "Deep Purple In Rock", 1970
As usual, p means pull off, h hammer on, b bend, x mute, / up slide.
verse1 :
e|------------------------------------------------------------------
B|------------------------------------------------------------------
G|------------------------------------------------------------------
D|--------0---------------0-----------------------------------------
A|--0-1-2---2-0-----0-1-2---2-0----------------------5---4---3---2--
E|--------------3x---------------3-0-0-0-0-0-0-0-0-0-3---2---1---0--


                                     Gotta a...    Chinese eyes...


Gotta black breast Chinese eyes
Got an English brain that's gonna make me wise
Got a long story that I wanna tell
To a rhythm that I know so well
Really got a lot of lovin' that I wanna give
Baby I'm a mystery but you know I gotta live
I tried another but she didn't want to know


interlude 1:
e|------------------------------------------------------------------
B|------------------------------------------------------------------
G|-------------------------/9-7-------------------------------------
D|--7/9-7----7------------------9-7------7/9-7----7-----------------
A|--------10---10-7----7x-----------10---------10---10-7----7-10x-5-
E|------------------10-----------------------------------10---------

 

e|------------------------------------------------------------------
B|------------------------------------------------------------------
G|-------------------------/9-7--------------7-----9-----7------9---
D|--7/9-7----7------------------9-7------7-9---7-9---7-9---7-9-(9)--
A|--------10---10-7----7x-----------10------------------------------
E|------------------10----------------------------------------------


verse 2:
Take a hold now if you can
Take a lesson from a hard lovin' man
I'm a long way from where I wanna go
Guess I'll stay awhile I really love you so
How's about another sip of all the wine you got
Take a tip from me and give it here I'll drink the lot
I'm not a winey, I'm a puttin' on a show


interlude 1 again


verse 3:
You really really grab me but I've gotta move
Before they know I'm here and spread the news
Maybe in while when I've moved around
I can find a way to pay you back your twenty pounds
Really got a lot of lovin' that I wanna give
Baby I'm a mystery but you know I gotta live
I tried another but she didn't want to know


interlude 1 again


interlude 2:
e|------------------------------------------------------------------
B|------------------------------------------------------------------
G|------------------------------------------------------------------
D|------------5--------5--------------------------------------------
A|--7--5----5----7x--5----7-7-7x---------------2--------------------
E|-------7-------------------------7-6-5--0-3--0--------------------

 

Ritchie's solo 1 (get your whammy ready):
e|-------------------------------------12---------------------------
B|-------------------------------12h15----(15)b17x---15-14-12-------
G|--7w~---7/12-11-14-(14)b16w~--------------------------------14----
D|------------------------------------------------------------------
A|------------------------------------------------------------------
E|------------------------------------------------------------------


e|------------------------------------------------------------------
B|------------------------------------------------------------------
G|--14p12----12w-------9-----------12w------------------------------
D|--------14--------/9---12h11h9-9----------------------------------
A|------------------------------------------------------------------
E|------------------------------------------------------------------

 

Ritchie's solo 2:
e|------------------------------------------------------------------
B|----------------------8w~-----------------------------------------
G|--9w~---9-9-7-6-----------/x--12-11-9-------------11-9------------
D|----------------9-6h9-----------------12-11-9--12------12-11-9----
A|------------------------------------------------------------------
E|------------------------------------------------------------------

 

e|------------------------------------------------------------------
B|------------------------------------------------------------------
G|-------------9--------------12w-----------------------------------
D|---------------12-11p9----9---------------------------------------
A|--12-11-9-11-----------11-----------------------------------------
E|------------------------------------------------------------------

 

Friends Whitesnake
Партнеры

Unofficial Russian Fan Site Whitesnake 2008 © 2017