Russian Fan Site Whitesnake - Российский неофициальный сайт Whitesnake.
Биография легендарной рок группы, история ее создания и дискография! Новости на сайте, концерты и отчеты с концертов. Фотографии, тексты песен и переводы.
Menu Whitesnake
 
Биография Whitesnake
Биография David Coverdale
Изменение состава Whitesnake
Tour Dates
Фотогалерея Whitesnake
Новые фотографии Whitesnake
Photos Band Members
Галерея Whitesnake
Видео Whitesnake
Media Whitesnake
Lirycs Whitesnake
Tabs Whitesnake
 

Партнеры

Детальная информация смола кротона лехлера купить на нашем сайте.

 Отправить сообщение администратору сайта  
 
Уход Uriah'a Duffy и Chris'a Frazier'a

Stormbringer
(Blackmore/Coverdale)
From "Stombringer", 1974.
INTRO: (K/Board adapted to Guitar)
     E5                     B5
+---------------+----------+----------------+
|---------------|-5\3------|----------------|
|---------------|-----4\2--|--------------0-|
|---------------|----------|-4-4-4-4-4--2---|
|----2-2-2-2-2--|----------|-2-2-2-2-2------|
+----0-0-0-0-0--+----------+----------------+

                         E5
+----------------------+------------------+
|-------^--------------|------------------|
|----2^--0-------------|------------------|
|----------2-0---------|--------------0-2-|
|--------------2-1-0---|-2-2-2-2-2--2-----|
+--------------------3-+-0-0-0-0-0--------+

                        B5          B5A5  A5G5
+---------------------+------------+----------+
|---------------------|------------|----------|
|---------------------|------------|----------|
|----5^4^2-0----------|-4-4-4-4-4--|----------|
|------------2-1-0----|-2-2-2-2-2--|-9\7--7\5-|
+------------------3--+------------+-7\5--5\3-+

VERSE RIFF:
     E5
++-------------------+-----------------+
||-------------------|-----------------|
||*--0---------------|-----------------|
||*----2-2-2-0-2-2-2-|-0-2-2-2-0-2-2-2-|
||-------------------|-----------------|
++-------------------+-----------------+

G5
+-------------------+----------------------++
|-------------------|----------------------||
|---0---------------|---------------------*||
|-----2-2-2-0-2-2-2-|-2-0-----------------*||
|-------------------|-----2-1-0-5----------||
+-------------------+-----------3----------++

CHORUS:
   E5       G5      C5      B5

+----------+-------+-------+------+
|----------|-------|-------|------|
|----------|-------|-------|------|
|----------|-------|-5-----|-4----|
|----2-----|-5-----|-3-----|-2----|
+----0-----+-3-----+-------+------+

     E5                 D5                 C5             B5
+---------------------+------------------+-----12-14-15-+-15^---+
|--------15-----15----|-----^------------|--------------|-------|
|----14^----14^----14-|-14^--12----12----|-12-----------|-------|
|---------------------|---------14----14-|--------------|-------|
|---------------------|------------------|--------------|-------|
+---------------------+------------------+--------------+-------+

    E5      G5       D5     A5
+----------+-------+-------+------+
|----------|-------|-------|------|
|----------|-------|-------|------|
|----------|-------|-7-----|------|
|----2-----|-5-----|-5-----|-7----|
+----0-----+-3-----+-------+-5----+

     B5
++-------------------+------------------------++
||-------------------|------------------------||
||*------------------|-----------------------*||
||*--0---------------|-----------------------*||
||-----2-2-2-0-2-2-2-|-0-2-2-2-0-2-2-2--------||
++-------------------+------------------------++

     E5D5             D5C5
+-----------+-------+---------+-------+
|-----------|-------|---------|-------|
|-----------|-------|---------|-------|
|----9\7----|-------|--7\5----|-------|
|----7\5----|-------|--5\3----|-------|
+-----------+-------+---------+-------+

Back to Riff:

SLIDE SOLO:

+--------+------+--------+---------+---------+
|--------|------|--5\3/5-|---------|---------|
|----2/4-|-4----|--------|-4/5-4/5-|-4/5-4/5-|
|--------|------|--------|---------|---------|
|--------|------|--------|---------|---------|
+--------+------+--------+---------+---------+

+----------+--------+-----------------+
|----------|--------|-8\7/8\7-8\7/8\7-|
|----4/9---|-9------|-----------------|
|----------|----~-~-|-----------------|
|----------|--------|-----------------|
+----------+--------+-----------------+

+--------------------+--------+----------------+
|----8\7/8\7-8\7/8\7-|-8/12---|-11/12-11/12----|
|--------------------|--------|-------------12-|
|--------------------|--------|----------------|
|--------------------|--------|----------------|
+--------------------+--------+----------------+

+----------------------+-12--11/12-+----------------+----------------+
|----------------11/12-|-----------|----------------|----------------|
|----11/12-11/12-------|-----------|-11/12\11/12\11-|-12\11-12\11-12-|
|----------------------|-----------|----------------|----------------|
|----------------------|-----------|----------------|----------------|
+----------------------+-----------+----------------+----------------+

+----------+-------+--/12\--7-+-8-9-10-11-+-12----+
|----------|-------|----------|-----------|-------|
|----9-----|-------|----------|-----------|-------|
|-------~-~|--~-~-~|----------|-----------|-------|
|----------|-------|----------|-----------|-------|
+----------+-------+----------+-----------+-------+

+-----14-15-+-17--11--+-12--10--+-8--7---+
|-----------|---------|---------|--------|
|-----------|---------|---------|--------|
|-----------|---------|---------|--------|
|-----------|---------|---------|--------|
+-----------+---------+---------+--------+

Friends Whitesnake
Партнеры

Unofficial Russian Fan Site Whitesnake 2008 © 2017