Russian Fan Site Whitesnake - Российский неофициальный сайт Whitesnake.
Биография легендарной рок группы, история ее создания и дискография! Новости на сайте, концерты и отчеты с концертов. Фотографии, тексты песен и переводы.
Menu Whitesnake
 
Биография Whitesnake
Биография David Coverdale
Изменение состава Whitesnake
Tour Dates
Фотогалерея Whitesnake
Новые фотографии Whitesnake
Photos Band Members
Галерея Whitesnake
Видео Whitesnake
Media Whitesnake
Lirycs Whitesnake
Tabs Whitesnake
 

Партнеры

 Отправить сообщение администратору сайта  
 
Уход Uriah'a Duffy и Chris'a Frazier'a

Soldier of Fortune
(Blackmore/Coverdale)
From "Stormbringer", 1974
guitar intro                                                       
 
E||------------------|----------------------------|-------------------------|
B||------------------|---------------------10-----|--11----13----15---------|
G||------------------|---------------12-----------|-------------------------|
D||------------------|---------12-----------------|-------------------------|
A||------------------|---10-----------------------|-------------------------|
E||------------------|----------------------------|-------------------------|


                                                          
----------------------------------|------------------------|
--13-15----11----10-11-10---------|---10-------------------|
----------------------------12----|------------------------|
----------------------------------|---------------------10-|
----------------------------------|------------------------|
----------------------------------|------------------------|
                            

 
----8-------------------------|--------------------|------------------------|
----8----11-13-11-10----------|-------8------------|--11--10----------------|
--9------------------12-------|--9-----------------|----------12------------|
------------------------------|--------------------|------------------------|
------------------------------|--------------------|------------------------|
------------------------------|--------------------|------------------------|

                           
 
---------------------|------------------|------------------|------------------|
---------------------|------------------|------------------|------------------|
---------------------|------------------|------------------|------------------|
--12-----------------|------------------|------------------|------------------|
---------------------|------------------|------------------|------------------|
---------------------|------------------|------------------|------------------|

arpeggio gtr
                             Gm                                   
E||------------------|-----------------3----|----------------------|
B||------------------|----------------------|--3-------------------|
G||------------------|------------3---------|-------3--------------|
D||------------------|-------5--------------|------------5---------|
A||------------------|----------------------|----------------------|
E||------------------|--3-------------------|-----------------3----|


            Dm                                                     
----------------------|--1-------------------|-----------------0----|
-----------------3----|-------3--------------|------------1---------|
------------2---------|------------2---------|-------0--------------|
--0----3--------------|-----------------0----|----------------------|
----------------------|----------------------|--3-------------------|
----------------------|----------------------|----------------------|

                                                                         
           
--3----0--------------|----------------------|-------------------|----------------------|
------------1---------|----------------------|--3----------------|-----------------3----|
----------------------|-----------------3----|-------------------|------------3---------|
----------------------|------------5---------|-------------------|-------5--------------|
-----------------3----|-------5--------------|-------------------|----------------------|
----------------------|--3-------------------|-------------------|--3-------------------|


                         F                                         
--3-------------------|----------------------|--1-------------------|
-------3--------------|-----------------1----|-------1--------------|
------------3---------|------------2---------|------------2---------|
-----------------5----|-------3--------------|-----------------3----|
----------------------|----------------------|----------------------|
----------------------|--1-------------------|----------------------|


                                                                   
----------------------|--3-------------------|----------------------|
-----------------3----|-------3--------------|-----------------3----|
------------3---------|------------3---------|------------2---------|
-------5--------------|-----------------5----|--0----3--------------|
----------------------|----------------------|----------------------|
--3-------------------|----------------------|----------------------|


                                                                    
--1-------------------|----------------------|--3--------------------|
-------3--------------|-----------------3----|-----------------------|
------------2---------|------------3---------|------------3----------|
-----------------3----|-------5--------------|-------5---------5-----|
----------------------|----------------------|-----------------------|
----------------------|--3-------------------|-----------------------|


                                                                    
----------------------|--1--------------------|----------------------|
-----------------1----|-------1---------------|-----------------3----|
------------2---------|------------2----------|------------3---------|
-------3--------------|-----------------3-----|-------5--------------|
----------------------|-----------------------|----------------------|
--1-------------------|-----------------------|--3-------------------|


                                                                     
--3--------------------|----------------------|--1--------------------|
-----------------3-----|-----------------3----|-------3---------------|
------------3----------|------------2---------|-----------------------|
-------5---------------|--0----3--------------|-------------0---------|
-----------------------|----------------------|----------0-------3----|
-----------------------|----------------------|-----------------------|


                               C                                    
-----------------------|----------------------|----------------------|
------------3----------|------------5---------|-----------------3----|
-------3---------3-----|-------5---------5----|------------3---------|
-----------------------|----------------------|-------5--------------|
--1--------------------|--3-------------------|----------------------|
-----------------------|----------------------|--3-------------------|


                                                  F                  
-----------------3-----|-----------------------|----------------------|
------------3----------|-----------------------|-----------------6----|
-------3---------------|------------8----------|------------5---------|
--5--------------------|-------8---------8-----|-------7--------------|
-----------------------|--6--------------------|--8-------------------|
-----------------------|-----------------------|----------------------|


  A#                     D                                          
----------------------|----------------------|-----------------3-----|
-----------------6----|-----------------7----|------------3----------|
------------7---------|------------7---------|-------3---------------|
-------8--------------|-------7--------------|--5--------------------|
----------------------|--5-------------------|-----------------------|
--6-------------------|----------------------|-----------------------|


                                                                   
------------1---------|----------------------|----------------------|
-----------------1----|-----------------6----|-----------------8----|
-------2--------------|------------7---------|------------8---------|
--3-------------------|-------8--------------|-------8--------------|
----------------------|----------------------|--6-------------------|
----------------------|--6-------------------|----------------------|


                                                                  
--6------------------|----------------------|----------------------|
---------------------|----------------------|----------------------|
---------------------|------------5---------|------------7---------|
------------0--------|-------5---------5----|-------7---------7----|
---------------------|--3-------------------|--5-------------------|
---------------------|----------------------|----------------------|


                                                                   
----------------------|--3-----------------||
-----------------3----|--------------------||
------------3---------|--------------------||
-------5--------------|--------------------||
----------------------|--------------------||
--3-------------------|--------------------||

Content-Disposition: form-data; name="file1"; filename="" Content-Type: application/octet-stream
Friends Whitesnake
Партнеры

Unofficial Russian Fan Site Whitesnake 2008 © 2017