Russian Fan Site Whitesnake - Российский неофициальный сайт Whitesnake.
Биография легендарной рок группы, история ее создания и дискография! Новости на сайте, концерты и отчеты с концертов. Фотографии, тексты песен и переводы.
Menu Whitesnake
 
Биография Whitesnake
Биография David Coverdale
Изменение состава Whitesnake
Tour Dates
Фотогалерея Whitesnake
Новые фотографии Whitesnake
Photos Band Members
Галерея Whitesnake
Видео Whitesnake
Media Whitesnake
Lirycs Whitesnake
Tabs Whitesnake
 

Партнеры

 Отправить сообщение администратору сайта  
 
Уход Uriah'a Duffy и Chris'a Frazier'a

Holy Man
(Coverdale/Hughes/Lord)
From "Stormbringer", 1974
Key:
~~~ Let Ring
/ Slide
h Hammer On
x Mute
 
Intro:
E------------------------------------------------------------------12---14---15 / 14---10---14---15---17---12---------------
B---8h7-8h7-8h7-7~~~/-5-5-5 / 7---8-8h10---15--------------------------------------------------------------------------
G--------------------------------------------------------------------------------------------------------------------------------------
D--------------------------------------------------------------------------------------------------------------------------------------
A--------------------------------------------------------------------------------------------------------------------------------------
E--------------------------------------------------------------------------------------------------------------------------------------
Verse 1:
E----------------------------------------------------------------5 / 7---12 / 14---------------------------------------------------
B---5 / 7-5-5-3-5-5 / 7---5---7 / 3-3---0---3-5h7--------------------------8-10---5 / 7---8h7-3-7-3-------------------
G--------------------------------------------------------------------------------------------------------------------------------------
D--------------------------------------------------------------------------------------------------------------------------------------
A--------------------------------------------------------------------------------------------------------------------------------------
E--------------------------------------------------------------------------------------------------------------------------------------
Chorus:
E--------------------------------------------------------------------------------------------------------------------------------------
B--------------------------------------------------------------------------------------------------------------------------------------
G----------------------5------7----------------------------------------------------------5------7-----------------------------------
D-------------0-5-7------7----------------------------------------------------0-5-7------7---------------------------------------
A---7-7-x----------------------------5-5-x------------5-----7---7-7-x---------------------------5-5---3-----------------------
E---5-5-x----------------------------3-3-x---3-5-7-----7-------5-5-x---------------------------3-3---1-----------------------
Verse 2:
E--------14 / 12 / 10-------------------------------------------10----2------------8------------------7----------------6---------
B--------------------------10---5--3-----5---3-----5---3----------------3-----------5---3-------------5---3-------------5-----
G---7----------------------------------2-----------2---------2------------------2-----------------2-----------------2------------2
D---------------------------------------------------------------------------------------------------------------------------------------
A---------------------------------------------------------------------------------------------------------------------------------------
E---------------------------------------------------------------------------------------------------------------------------------------
E---10-2---------2------------3----------1 / 3--3 / 5-------------------------------------------------------------------------------
B-----------3---------3------------3-----------------------5 / 7—8-7-8-7------5-2--------5-5-3—33333……---------------
G--------------2----------4-----------2----------------------------------------4--------4—4----------------------------------------
D----------------------------------------------------------------------------------------------------------------------------------------
A----------------------------------------------------------------------------------------------------------------------------------------
E-----------------------------------------------------------------------------------------------------------------------------------------

Back To Chorus………
Bridge:
E------------------------------------------------------------------------------------------------------------------------------------------
B—8 / 7---7 / 5---8 / 7---8 / 7---7 / 5---5 / 3---8 / 7---7 / 5---8 / 7---8 / 7---7 / 5-----------------------------------------
G------------------------------------------------------------------------------------------------------------------------------------------
D------------------------------------------------------------------------------------------------------------------------------------------
A------------------------------------------------------------------------------------------------------------------------------------------
E------------------------------------------------------------------------------------------------------------------------------------------
Solo:
E--------------------------------------------------------------------------------------------2-2 / 10---10-12-12 / 14---14 / 17---
B---3----7h8-7h8-7h8-7h8-7---3---10 / 12-10---3-3 / 2-3---5 / 7---8-7-3-------------------------------------------------
G------------------------------------------------------------------------------------------------------------------------------------------
D------------------------------------------------------------------------------------------------------------------------------------------
A------------------------------------------------------------------------------------------------------------------------------------------
E------------------------------------------------------------------------------------------------------------------------------------------
E---9-10-12---14 / 17---7---9 / 5---5-----5---10~~~10-12-14-15 / 17---12------------------------------------------------
B---------------------------------------------7-------------------------------------------------------------------------------------------
G------------------------------------------------------------------------------------------------------------------------------------------
D------------------------------------------------------------------------------------------------------------------------------------------
A------------------------------------------------------------------------------------------------------------------------------------------
E------------------------------------------------------------------------------------------------------------------------------------------
Back To Chorus………
Verse 3:
E----------------------------------------------------------8 / 10-------------------------------------------------------------------------
B---5 / 7~~~8 / 7---3---7-3----5 / 7---7---3-------------------5-3----5-3-------------------------------------------------------
G---------------------------------2------------------2---------------------2-------2---3---7h8-7h8-7h8-7---3--------------------
D-----------------------------------------------------------------------------------------------------------------------4------2----------
A---------------------------------------------------------------------------------------------------------------------------4-------------
E------------------------------------------------------------------------------------------------------------------------------------------
E------------------------------------------------------------------------------------------------------------------------------------------
B---5 / 8-10---5 / 7-8-7-5-7~~~5-7-8---8 / 10-----------------------------------------------------------------------------------
G------------------------------------------------------------------------------------------------------------------------------------------
D------------------------------------------------------------------------------------------------------------------------------------------
A------------------------------------------------------------------------------------------------------------------------------------------
E------------------------------------------------------------------------------------------------------------------------------------------
Back To Chorus (play chorus 2x)

Outro:
E----------------------------------------------------------------------------------------------------------------------------------------
B---5 / 7~~~8-7-3---8---10---3-5---5 / 7---7h8-7h8-7h8-7h8-7---7h8-7h8-7~8-8 / 10---7h8-7h8-7-8-7---7h8-
G----------------------------------------------------------------------------------------------------------------------------------------
D----------------------------------------------------------------------------------------------------------------------------------------
A-----------------------------------------------------------------------------------------------------------------------------------------
E-----------------------------------------------------------------------------------------------------------------------------------------
E----------------------- / 12--fast------------------------------------------------------------------------------------------------------
B---7h8-7-8-8 / 10-------------------------------------------------------------------------------------------------------------------
G-----------------------------------------------------------------------------------------------------------------------------------------
D-----------------------------------------------------------------------------------------------------------------------------------------
A------------------------------------------------------------------------------------------------------------------------------------------
E------------------------------------------------------------------------------------------------------------------------------------------
This is a song tabbed out in full to every last note.

Friends Whitesnake
Партнеры
Продажа по объявлениям главные новости дня.

Unofficial Russian Fan Site Whitesnake 2008 © 2017