Russian Fan Site Whitesnake - Российский неофициальный сайт Whitesnake.
Биография легендарной рок группы, история ее создания и дискография! Новости на сайте, концерты и отчеты с концертов. Фотографии, тексты песен и переводы.
Menu Whitesnake
 
Биография Whitesnake
Биография David Coverdale
Изменение состава Whitesnake
Tour Dates
Фотогалерея Whitesnake
Новые фотографии Whitesnake
Photos Band Members
Галерея Whitesnake
Видео Whitesnake
Media Whitesnake
Lirycs Whitesnake
Tabs Whitesnake
 

Партнеры

 Отправить сообщение администратору сайта  
 
Уход Uriah'a Duffy и Chris'a Frazier'a

Burn

(Blackmore/Coverdale/Lord/Paice)

From "Burn", 1974

E--------------------------------------------------------------
------ B-----------------------------------------------------
--------------- G-------3------2---0----5----0-----3----2---
--0-----5-----3---------- D--------3----2-----0----5----0---
--3----2-----0-----5-----3--------- A-----------------------
--------------------------------------------- E-----
--------------------------------------------
------------------- E---------------------------
----------------------------------------- B-------
-----------------------------------------------------
-------- G-------3----2---0----5--0----3---2----0-----
------------------------ D---------3---2----0----5---
0----3---2---0----3---------------------- A----
------------------------------------------3------
--------------- E--------------------------------
---------------3--------------------    
GmThe sky is red,..I don't understand.FPast 
midnight I still see the land. Gm  
C with G on bass  The people are saying the woman is damned, she makes 
you burn with a  wave of her hand. -> back to the main guitar riff!Gm T
he city´s ablaze, the town´s on fire.FThe woman´s flame are reaching 
higher.Gm We were fools we called her liar. Bb   F    C                  
Gm All I hear ...........is BURN -> back to main guitar riff!
Friends Whitesnake
Партнеры

Unofficial Russian Fan Site Whitesnake 2008 © 2017